Forever Delayed - The Independent Manics Forum  

Go Back   Forever Delayed - The Independent Manics Forum > Manic Street Preachers > Manic Street Preachers Discussion

Reply
 
Thread Tools Display Modes
  #181  
Old 05-07-2020, 09:23
FacelessSenseOfVoid's Avatar
FacelessSenseOfVoid FacelessSenseOfVoid is offline
Winterlover
 
Join Date: Jan 2003
Location: Sheffield/Birmingham
Age: 39
Posts: 6,515
Quote:
Originally Posted by ron the little seal View Post
Who's drumming for the album?
Apparently Richard Beak apart from one track which Nick Dewey is on.
__________________
23/08/01 CIA, 06/04/05 Civic Hall, 24/05/06 Camden Barfly, 11/10/06 Birmingham Barfly, 12/05/07 Cardiff Uni, 21/05/07 Civic Hall, 27/05/07 Manchester Apollo, 02/06/07 Colston Hall, 09/06/07 Reading Hexagon, 08/12/07 Birmingham NIA, 12/12/07 Brixton Academy, 28/02/08 O2 Arena, 30/05/09 Roundhouse, 12/10/10 Derby Assembly Rooms, 14/12/10 Birmingham O2 Academy, 19/05/11 Civic Hall, 17/12/11 O2 Arena, 06/11/12 Rough Trade, 13/09/13 Newport Centre, 23/09/13 Colston Hall, 27/09/13 Manchester Ritz, 29/03/14 Cardiff Motorpoint, 31/03/14 Leicester De Montfort, 06/04/14 Civic Hall, 08/07/14 Rough Trade, 14/05/16 Genting Arena, 09/07/17 Llangollen, 06/10/17 Drama Studio, 16/03/18 Absolute Radio, 14/04/18 Rough Trade, 27/04/18 Birmingham Arena, 05/05/18 Cardiff Motorpoint

Twitter: @Khizzy
Reply With Quote
  #182  
Old 05-07-2020, 10:25
Clint Bradfield's Avatar
Clint Bradfield Clint Bradfield is offline
I am purity, they call me perverted
 
Join Date: Jul 2004
Posts: 161
Quote:
Originally Posted by Europa Gluten Free View Post
Tab

Main riff (with whammy and effects - hopefully James was using the Jazzmaster - it sounds like it!)

覧覧覧覧覧覧-覧
覧覧覧覧 12 b 13 (whammied)
覧覧 12 覧 x 覧覧
覧覧 10 覧 10 覧
覧覧 8 覧 7 覧覧
覧覧覧覧覧覧覧

Chord before chorus (Version of D#!!!! James fav chord!)

覧覧覧覧覧覧-
覧覧覧覧覧覧-
覧 10 覧覧覧覧-
覧 8 覧覧覧覧-
覧 6覧覧覧覧覧
覧覧覧覧覧覧

Chorus

Am, F, C, Em

On the F and Em chords there is a little run starting 3rd fret high e string


覧3 覧 1 覧 0覧
覧3 覧 1 覧 0覧
覧- 2 覧 0 覧
覧覧覧覧覧
覧覧覧覧覧
覧覧覧覧覧
Cheers for this. Certainly some interesting
chords at play in this one!
Reply With Quote
  #183  
Old 05-07-2020, 11:20
IrelandCalling4 IrelandCalling4 is offline
I am purity, they call me perverted
 
Join Date: May 2009
Posts: 118
Ordered signe CD from the official store; first time ordering signed stuff. Looking forward to it greatly!
Reply With Quote
  #184  
Old 05-07-2020, 15:35
UEF's Avatar
UEF UEF is online now
Doors slowly closing
 
Join Date: Jan 2003
Location: London
Posts: 8,277
https://www.smarkgubb.com/s-mark-gub...-even-in-exile
__________________
V2002 Move 2003 V2006 KoKo 2006 Culture Show 2007 Album Chart Show 2007 XFM 2007 V2007 Glastonbury 2007 Astoria 2007 London Brixton 2007 NME Awards 2008 NME Big Gig 2008 Forever Heavenly 2008 London Roundhouse 2009 London Forum 2009 Concert for Care 2009 XFM Winter Wonderland 2010 London Brixton Academy 2011 Blackwood Miners Institute 2011 Roundhouse 2011 O2 2011 London Rough Trade East 2012 London Shepherds Bush 2013 London Brixton 2014 Glastonbury 2014 London Rough Trade East 2014 London Acoustic Guitar Show 2014 London Roundhouse 2014 Cardiff Castle 2015 London On Blackheath 2015 London Royal Albert Hall 2016 Swansea Liberty Stadium 2016 Wembley Arena 2018 London Shepherds Bush 2019 Glastonbury 2021... maybe? (36)
Reply With Quote
  #185  
Old 05-07-2020, 19:09
Symmanine's Avatar
Symmanine Symmanine is offline
A self-made vacuum
 
Join Date: May 2003
Location: Denmark
Age: 37
Posts: 2,481
Quote:
Originally Posted by beautifuldistortion View Post
'The boy from the plantation' is simply the best thing from a Manic in years.

Any guesses who the backing singer is during the chorus?
Agreed!

Wayne?
__________________
I'm perpetually stuck in a sepia film
Reply With Quote
  #186  
Old 05-07-2020, 19:27
Son of Stopped's Avatar
Son of Stopped Son of Stopped is online now
Builder of routine
 
Join Date: Jun 2007
Location: Make a cup of tea
Age: 45
Posts: 15,452
I know it's mainly us reading it, but I do love how the thread views went from triple figures to tens of thousands of figures in a short time.
Would have posted this in random Manics thoughts, but... You know. Or y'know.
__________________
'THERE'S NO SUCH THING AS COMMUNISM'
MADE A MOVIE OF MY POETRY IN MY BEDROOM https://youtu.be/Vq73VlTb3WI Top that, mainstream and counterculture! Cut straight to the chase about environment https://youtu.be/Ia6LGJou9CY
Reply With Quote
  #187  
Old 05-07-2020, 19:53
qster's Avatar
qster qster is offline
I am purity, they call me perverted
 
Join Date: May 2004
Location: Cambs
Age: 52
Posts: 457
Quote:
Originally Posted by Tim View Post
I'm liking the new single as well, sounds like a celebration of jara's life and a nice counterpoint to the arrival of pinochet's military coup in there'll come a war.

The documentary about jara's life and murder on netflix might be of interest to some - https://www.netflix.com/gb/title/80191048
Just watched this ☝️ Very good film and quite emotional. This is why I love the Manics and solo projects. Gives me knowledge of things I might not have been so aware of without them. I really do despise the CIA and America at times.
Thanks for the post.
__________________
To the only people who understand, this ain`t about drug addiction. It`s just a walk in the park.

Stay Beautiful.
Reply With Quote
  #188  
Old 05-07-2020, 23:38
Bonesy's Avatar
Bonesy Bonesy is offline
Knowlede Is Power
 
Join Date: Sep 2004
Location: Radio Free Carrickfergus.
Age: 36
Posts: 1,113
Boy from the Plantation isn’t bad didn’t really get that piano track really tho.
__________________
鼎lose the pits Manics 1993
Reply With Quote
  #189  
Old 06-07-2020, 13:14
stormstocome's Avatar
stormstocome stormstocome is offline
An imitation of dignity
 
Join Date: Apr 2009
Location: Spain
Posts: 71
Hi.
Could anyone be willing to buy the hmv version with the extra 7" for me?
Shame the do not ship abroad?
__________________
981031 Bilbao (Kafe Antzokia) - 990320 Madrid (Riviera) - 010518 Madrid (Festimad) - 070821 Belfast (Vital) - 100710 Bilbao (BBK Live) - 110121 London (Brixton Academy) - 111217 London (O2) - 131122 Bilbao (BEC / BIME) - 1411215 London (Roundhouse) - 160528 Swansea (Liberty Stadium) - 180505 Cardiff (Motorpoint Arena) - 190629 Cardiff (Cardiff Castle)
Reply With Quote
  #190  
Old 06-07-2020, 15:00
Jack Jack is offline
Born to end
 
Join Date: May 2014
Posts: 8
Here's my best attempt at the guitar parts for The Boy from the Plantation. As mentioned above, judicious use of the whammy bar recommended!

INTRO
--------------7--|
-----8-----------|
---5--------5----|
------------------| x2
-8--------7------|
-----------------|


VERSE
--------------------|------------------
--------------------|------------------
--------------------|-------------0----
-----0--------0----|-----0-------0----
---3--------3------|---3-------3------
-1--------1--------|-0-------0--------

--------------------|-----------------3--3--
--------------------|-----------------3--3--
--------------------|-----------------0--0--
-----0--------0----|-----0-------0---0--0--
---3--------3------|---3-------3-----2--2--
-1--------1--------|-0-------0-------3--3--

--------------------|------------------
--------------------|------------------
--------------------|-------------0----
-----0--------0----|-----0-------0----
---3--------3------|---3-------3------
-1--------1--------|-0-------0--------

--------------------|------------------
--------------------|------------------
--------------------|-------------0----
-----0--------0----|-----0-------0----
---3--------3------|---3-------3------
-1--------1--------|-0-------0--------


PRE-CHORUS
------------------------|
-------------------------|
---3---3---3---3-------|
--3---3---3---3--------|
-5---5---5---5---------|
-------------------0--3--|


CHORUS
--------|-----5------3-1-0------------
-1------|----------0--------3-1-0------
-2------|---5----------------------2-0--
-2------|-3------3--------------------
-0------|-----------------------------
--------|-----------------------------

-0------|-----5------3-1-0------------
-1------|---0------0--------3-1-0------
-0------|-0------0-----------------2-0--
-2------|----------------------------
-3------|-----------------------------
--------|-----------------------------


FIRST CHORUS OUTRO
-----5------3-1-0--------------|-3-1-0----------------------------|
----------0--------3-1-0-------|-3------3-1-0----------------------|
---5----------------------2-0--|-2--------------2-----2---2---2------|
-3------3----------------------|-0-------------------3---2---0--------|
--------------------------------|-----------------------------------3-2--|
--------------------------------|-----------------------------------------|


INSTRUMENTAL BRIDGE & OUTRO
-----5------3-1-0--------------|-----5------3-1-0------------
----------0--------3-1-0-------|---0------0--------3-1-0------
---5----------------------2-0--|-0------0------------------2-0-- x2
-3------3-----------------------|-----------------------------
---------------------------------|-----------------------------
---------------------------------|-----------------------------
Reply With Quote
  #191  
Old 06-07-2020, 18:50
everlasting's Avatar
everlasting everlasting is offline
I live to fall asleep
 
Join Date: Jan 2005
Location: Wakefield
Age: 37
Posts: 4,427
Quote:
Originally Posted by Jack View Post
Here's my best attempt at the guitar parts for The Boy from the Plantation. As mentioned above, judicious use of the whammy bar recommended!

INTRO
--------------7--|
-----8-----------|
---5--------5----|
------------------| x2
-8--------7------|
-----------------|


VERSE
--------------------|------------------
--------------------|------------------
--------------------|-------------0----
-----0--------0----|-----0-------0----
---3--------3------|---3-------3------
-1--------1--------|-0-------0--------

--------------------|-----------------3--3--
--------------------|-----------------3--3--
--------------------|-----------------0--0--
-----0--------0----|-----0-------0---0--0--
---3--------3------|---3-------3-----2--2--
-1--------1--------|-0-------0-------3--3--

--------------------|------------------
--------------------|------------------
--------------------|-------------0----
-----0--------0----|-----0-------0----
---3--------3------|---3-------3------
-1--------1--------|-0-------0--------

--------------------|------------------
--------------------|------------------
--------------------|-------------0----
-----0--------0----|-----0-------0----
---3--------3------|---3-------3------
-1--------1--------|-0-------0--------


PRE-CHORUS
------------------------|
-------------------------|
---3---3---3---3-------|
--3---3---3---3--------|
-5---5---5---5---------|
-------------------0--3--|


CHORUS
--------|-----5------3-1-0------------
-1------|----------0--------3-1-0------
-2------|---5----------------------2-0--
-2------|-3------3--------------------
-0------|-----------------------------
--------|-----------------------------

-0------|-----5------3-1-0------------
-1------|---0------0--------3-1-0------
-0------|-0------0-----------------2-0--
-2------|----------------------------
-3------|-----------------------------
--------|-----------------------------


FIRST CHORUS OUTRO
-----5------3-1-0--------------|-3-1-0----------------------------|
----------0--------3-1-0-------|-3------3-1-0----------------------|
---5----------------------2-0--|-2--------------2-----2---2---2------|
-3------3----------------------|-0-------------------3---2---0--------|
--------------------------------|-----------------------------------3-2--|
--------------------------------|-----------------------------------------|


INSTRUMENTAL BRIDGE & OUTRO
-----5------3-1-0--------------|-----5------3-1-0------------
----------0--------3-1-0-------|---0------0--------3-1-0------
---5----------------------2-0--|-0------0------------------2-0-- x2
-3------3-----------------------|-----------------------------
---------------------------------|-----------------------------
---------------------------------|-----------------------------
This sounds good to me Bit quick for me as I'm just getting back into guitar haha, but yeah thanks for this!
__________________
Reply With Quote
  #192  
Old 06-07-2020, 20:09
Tim's Avatar
Tim Tim is offline
Winterlover
 
Join Date: Jan 2003
Location: ...my fathers can have it.
Posts: 5,499
Quote:
Originally Posted by qster View Post
Just watched this ☝️ Very good film and quite emotional. This is why I love the Manics and solo projects. Gives me knowledge of things I might not have been so aware of without them. I really do despise the CIA and America at times.
Thanks for the post.
I saw it on the fdforum twitter so whoever the hell runs that thank them but yeah, it gives a good primer on his activism and politics at least. If you've read even a smattering of noam chomsky then you'll be well aware this has been the united states' raison d'etre for many decades now.
__________________
Please, he prayed, now -
A gray disk, the colour of Chiba sky.
Now -
Disk beginning to rotate, faster, becoming a sphere of paler gray. Expanding -
And flowed, flowered for him, fluid neon origami trick, the unfolding of his distanceless home, his country, transparent 3D chessboard extending to infinity.
Inner eye opening to the stepped scarlet pyramid of the Eastern Seaboard Fission Authority burning beyond the green cubes of Mitsubishi Bank of America,
and high and very far away he saw the spiral arms of military systems, forever beyond his reach.
And somewhere he was laughing, in a white-painted loft, distant fingers caressing the deck, tears of release streaking his face.
Reply With Quote
  #193  
Old 12-07-2020, 11:05
UEF's Avatar
UEF UEF is online now
Doors slowly closing
 
Join Date: Jan 2003
Location: London
Posts: 8,277
Advert for the blue vinyl https://www.facebook.com/92577111088...36001089/?vh=e
__________________
V2002 Move 2003 V2006 KoKo 2006 Culture Show 2007 Album Chart Show 2007 XFM 2007 V2007 Glastonbury 2007 Astoria 2007 London Brixton 2007 NME Awards 2008 NME Big Gig 2008 Forever Heavenly 2008 London Roundhouse 2009 London Forum 2009 Concert for Care 2009 XFM Winter Wonderland 2010 London Brixton Academy 2011 Blackwood Miners Institute 2011 Roundhouse 2011 O2 2011 London Rough Trade East 2012 London Shepherds Bush 2013 London Brixton 2014 Glastonbury 2014 London Rough Trade East 2014 London Acoustic Guitar Show 2014 London Roundhouse 2014 Cardiff Castle 2015 London On Blackheath 2015 London Royal Albert Hall 2016 Swansea Liberty Stadium 2016 Wembley Arena 2018 London Shepherds Bush 2019 Glastonbury 2021... maybe? (36)
Reply With Quote
  #194  
Old 13-07-2020, 08:56
someone, somewhere, soon's Avatar
someone, somewhere, soon someone, somewhere, soon is offline
Desire on its knees
 
Join Date: Sep 2005
Location: Cambridge
Age: 39
Posts: 884
James doing a good round of radio promo and the like judging by Twitter - haven't caught any of them, assume they've all just been interviews and there's been no acoustic sessions yet?
__________________
http://www.last.fm/user/-jc-
Reply With Quote
  #195  
Old 13-07-2020, 10:20
ron the little seal's Avatar
ron the little seal ron the little seal is offline
Freed from the century
 
Join Date: Aug 2003
Location: Wales
Age: 36
Posts: 757
I understand why he's not doing gigs due to covid and wanting it to be a smaller project. I would love to hear these songs live tho
__________________
Nothing is secure but life, transition, the energizing spirit. No love can be bound by oath or covenant to secure it against a higher love. No truth so sublime but it may be trivial tomorrow in the light of new thoughts. People wish to be settled; only as far as they are unsettled is there any hope for them.
Reply With Quote
Reply

Thread Tools
Display Modes

Posting Rules
You may not post new threads
You may not post replies
You may not post attachments
You may not edit your posts

BB code is On
Smilies are On
[IMG] code is On
HTML code is Off

Forum Jump


All times are GMT. The time now is 10:37.


Powered by vBulletin® Version 3.8.6
Copyright ©2000 - 2020, Jelsoft Enterprises Ltd.